0
SECTION
2
HEADER
9
$INSUNITS
70
4
9
$ACADVER
1
AC1014
9
$HANDSEED
5
FFFF
0
ENDSEC
0
SECTION
2
TABLES
0
TABLE
2
VPORT
5
8
100
AcDbSymbolTable
0
ENDTAB
0
TABLE
2
LTYPE
5
5
100
AcDbSymbolTable
0
LTYPE
5
14
100
AcDbSymbolTableRecord
100
AcDbLinetypeTableRecord
2
BYBLOCK
70
0
0
LTYPE
5
15
100
AcDbSymbolTableRecord
100
AcDbLinetypeTableRecord
2
BYLAYER
70
0
0
LTYPE
5
16
100
AcDbSymbolTableRecord
100
AcDbLinetypeTableRecord
2
DASHED
70
0
3
Dashed __ __ __ __ __ __ __ __ __ __ __ __ __ _
72
65
73
2
40
0.75
49
0.5
74
0
49
-0.25
74
0
0
ENDTAB
0
TABLE
2
LAYER
5
2
100
AcDbSymbolTable
70
2
0
LAYER
5
50
100
AcDbSymbolTableRecord
100
AcDbLayerTableRecord
2
0
70
0
62
7
6
CONTINUOUS
0
ENDTAB
0
TABLE
2
STYLE
5
3
100
AcDbSymbolTable
70
1
0
STYLE
5
11
100
AcDbSymbolTableRecord
100
AcDbTextStyleTableRecord
2
STANDARD
70
0
0
ENDTAB
0
TABLE
2
VIEW
5
6
100
AcDbSymbolTable
70
0
0
ENDTAB
0
TABLE
2
UCS
5
7
100
AcDbSymbolTable
70
0
0
ENDTAB
0
TABLE
2
APPID
5
9
100
AcDbSymbolTable
70
2
0
APPID
5
12
100
AcDbSymbolTableRecord
100
AcDbRegAppTableRecord
2
ACAD
70
0
0
ENDTAB
0
TABLE
2
DIMSTYLE
5
A
100
AcDbSymbolTable
70
1
0
ENDTAB
0
TABLE
2
BLOCK_RECORD
5
1
100
AcDbSymbolTable
70
1
0
BLOCK_RECORD
5
1F
100
AcDbSymbolTableRecord
100
AcDbBlockTableRecord
2
*MODEL_SPACE
0
BLOCK_RECORD
5
1B
100
AcDbSymbolTableRecord
100
AcDbBlockTableRecord
2
*PAPER_SPACE
0
ENDTAB
0
ENDSEC
0
SECTION
2
BLOCKS
0
BLOCK
5
20
100
AcDbEntity
100
AcDbBlockBegin
2
*MODEL_SPACE
0
ENDBLK
5
21
100
AcDbEntity
100
AcDbBlockEnd
0
BLOCK
5
1C
100
AcDbEntity
100
AcDbBlockBegin
2
*PAPER_SPACE
0
ENDBLK
5
1D
100
AcDbEntity
100
AcDbBlockEnd
0
ENDSEC
0
SECTION
2
ENTITIES
0
POINT
5
100
100
AcDbEntity
8
0
100
AcDbPoint
10
0
20
0
30
0
0
LWPOLYLINE
5
101
100
AcDbEntity
8
0
100
AcDbPolyline
90
4
70
1
43
0.0
10
-12.5
20
-12.500000000000002
10
12.5
20
-12.500000000000002
10
12.5
20
12.499999999999998
10
-12.5
20
12.499999999999998
0
LINE
5
102
100
AcDbEntity
8
0
100
AcDbLine
10
-0.41022269824966706
20
-3.1627604382239727
30
0
11
-2.4348592113007972
21
10.02604059768993
31
0
0
ARC
5
103
100
AcDbEntity
8
0
100
AcDbCircle
10
-3.0279119994843295
20
9.9350000000000023
30
0
40
0.60000000000000064
210
0
220
-0
230
1
100
AcDbArc
50
8.7274468831621022
51
170.68179056159025
0
LINE
5
104
100
AcDbEntity
8
0
100
AcDbLine
10
-3.6199945833877747
20
10.032150470087496
30
0
11
-5.5002279127947196
21
-1.426913052857981
31
0
0
LWPOLYLINE
5
105
100
AcDbEntity
8
0
100
AcDbPolyline
90
27
43
0.0
10
-5.50022791279472
20
-1.426913052857981
10
-5.581488797511065
20
-0.41845008777399606
10
-5.672377432269258
20
0.5293558091592598
10
-5.772739063805263
20
1.417352386622649
10
-5.882333231411092
20
2.2468464853843795
10
-6.000846277873833
20
3.0195278515355493
10
-6.127903860414708
20
3.737392949725691
10
-6.263083457257218
20
4.402668803455113
10
-6.405926311014598
20
5.017740321574961
10
-6.5559461644116155
20
5.5850974809169385
10
-6.712635325439862
20
6.107299040295075
10
-6.8754704336549715
20
6.586938104502402
10
-7.043918225898219
20
7.026607691870672
10
-7.217441302008766
20
7.428866301896719
10
-7.3955038177493035
20
7.796204000705196
10
-7.577576105979262
20
8.131016131435333
10
-7.763137434696882
20
8.43559027977268
10
-7.951678269485958
20
8.712096765366732
10
-8.142702526370096
20
8.962579201493696
10
-8.33572982466699
20
9.188945054719198
10
-8.530297738708695
20
9.392956237361869
10
-8.92230842496408
20
9.740194562507103
10
-9.31547288570234
20
10.01532221405036
10
-9.706942289373469
20
10.226972042852122
10
-10.094340535353378
20
10.38146829433605
10
-10.475839598942507
20
10.48298022209664
10
-10.85026180512109
20
10.533791798094962
0
ARC
5
106
100
AcDbEntity
8
0
100
AcDbCircle
10
-10.885000000000002
20
10.035000000000004
30
0
40
0.50000000003024825
210
0
220
-0
230
1
100
AcDbArc
50
86.016086659540107
51
229.02060132578416
0
LWPOLYLINE
5
107
100
AcDbEntity
8
0
100
AcDbPolyline
90
20
43
0.0
10
-11.212893811248662
20
9.657527287666614
10
-10.870685821298439
20
9.340312296360645
10
-10.550818544776314
20
9.002798180971169
10
-10.252952510481336
20
8.645278212331535
10
-9.976561844062148
20
8.268205381095243
10
-9.720962892560523
20
7.872166703370778
10
-9.485342848954891
20
7.457857526356458
10
-9.268788366635611
20
7.026055843066112
10
-9.070312876605314
20
6.577597778387516
10
-8.888876515888727
20
6.113359746612333
10
-8.723399904348588
20
5.6342461633504755
10
-8.435889351528274
20
4.635080013565471
10
-8.198852991062063
20
3.5874515436094345
10
-8.003544601371061
20
2.498436499573563
10
-7.841664858692477
20
1.3746068108504894
10
-7.705517358992342
20
0.22190648922296885
10
-7.58814903602511
20
-0.9544562212371457
10
-7.48345998524977
20
-2.150074694636168
10
-7.292418792992429
20
-4.585543570426284
10
-7.103414315995454
20
-7.065616605170338
0
ARC
5
108
100
AcDbEntity
8
0
100
AcDbCircle
10
-6.1811637485860826
20
-6.9943502672960411
30
0
40
0.92500000000049809
210
0
220
0
230
1
100
AcDbArc
50
184.41871441844603
51
349.77218677545108
0
LINE
5
109
100
AcDbEntity
8
0
100
AcDbLine
10
-5.2708624339355996
20
-7.1585955611269503
30
0
11
-3.4922795755876779
21
2.6988942725590315
31
0
0
LINE
5
110
100
AcDbEntity
8
0
100
AcDbLine
10
-3.4922795755876779
20
2.6988942725590315
30
0
11
-1.7638869629688503
21
-7.9671557414472343
31
0
0
ARC
5
111
100
AcDbEntity
8
0
100
AcDbCircle
10
-0.90015384606438209
20
-7.8271910931874222
30
0
40
0.87500000000000022
210
0
220
0
230
1
100
AcDbArc
50
189.20455115411488
51
348.90855242532791
0
LINE
5
112
100
AcDbEntity
8
0
100
AcDbLine
10
-0.041497629442224654
20
-7.995519645893495
30
0
11
1.8327013022372607
21
1.5649057127400168
31
0
0
LWPOLYLINE
5
113
100
AcDbEntity
8
0
100
AcDbPolyline
90
88
43
0.0
10
1.8327013022372607
20
1.5649057127400168
10
1.9525025820279152
20
0.5340757677544111
10
2.080549903150596
20
-0.44947508866205704
10
2.2168980934798554
20
-1.3856838926591704
10
2.3616979505281956
20
-2.27453577584644
10
2.5152319814856408
20
-3.116093273355556
10
2.677925578692653
20
-3.910448009231543
10
2.8503702453934157
20
-4.657710576519173
10
3.0333983168550493
20
-5.358163514780794
10
3.228176263277285
20
-6.012473111480344
10
3.4362243088537494
20
-6.621667518112716
10
3.65933260996082
20
-7.18678680765378
10
3.8995182407767293
20
-7.708661938934978
10
4.159236854072408
20
-8.188499318267114
10
4.441725958192855
20
-8.628882216464401
10
4.750971786424534
20
-9.033589196587872
10
5.091001055185192
20
-9.40529236231645
10
5.464986893215365
20
-9.742881499311405
10
5.874318542184571
20
-10.039772652933802
10
6.317669233164462
20
-10.283040022955246
10
6.550808341333086
20
-10.378810054315325
10
6.790543434584373
20
-10.453719386477083
10
7.035917965254744
20
-10.50490026950752
10
7.285873795943127
20
-10.529493408502836
10
7.539272994914078
20
-10.524756918199301
10
7.794900996579153
20
-10.48817342693999
10
8.051462966384197
20
-10.417556505767475
10
8.307579935143279
20
-10.311157074620043
10
8.561785179104167
20
-10.167769207079695
10
8.812528853722224
20
-9.986815733485393
10
9.058207092109173
20
-9.768373964729081
10
9.2972023322757
20
-9.513173932649114
10
9.527924192190108
20
-9.22259528959859
10
9.748850315609868
20
-8.898663700341082
10
9.958565707831056
20
-8.544021005177331
10
10.155796394465302
20
-8.16179677916156
10
10.339439814580297
20
-7.755423170148413
10
10.50859499205907
20
-7.328445884698554
10
10.662592631294103
20
-6.884335465004184
10
10.801018704705116
20
-6.426323649380777
10
11.030707719872673
20
-5.480157030041
10
11.19874557753489
20
-4.510995057097096
10
11.308683129425562
20
-3.5376537549551017
10
11.365780900125783
20
-2.57744428740937
10
11.37663036308384
20
-1.6456264798130176
10
11.34881259065175
20
-0.7546545811214896
10
11.290343855904807
20
0.08622439530495535
10
11.208986012589296
20
0.8711260994760373
10
11.111672359686526
20
1.5975295833258756
10
11.004171680661466
20
2.2660268596954802
10
10.890749874727685
20
2.8801809712654896
10
10.773427599631061
20
3.4474149955478626
10
10.650929603432647
20
3.980671665207383
10
10.367936503448778
20
5.018023134607615
10
10.191568457336562
20
5.552357075536586
10
9.98125966675454
20
6.103800095352334
10
9.73038338805381
20
6.66638519967212
10
9.434256993210099
20
7.226915287702799
10
9.09049229017646
20
7.767113864152738
10
8.699213337956838
20
8.26607984558222
10
8.486556286716066
20
8.493394193441883
10
8.263373413416167
20
8.702452996851033
10
8.030550654734956
20
8.890804356261645
10
7.789209056864512
20
9.056186581520643
10
7.540718945512006
20
9.196596650517307
10
7.286713493961354
20
9.310369649069633
10
7.029102223772996
20
9.396259439700637
10
6.770084471271603
20
9.45351929454424
10
6.512153560540265
20
9.481972101815863
10
6.258031971108321
20
9.482003154747728
10
6.010534926220996
20
9.454472635074822
10
5.772423433464447
20
9.40061626304472
10
5.546257284762038
20
9.321945894113036
10
5.334255864168732
20
9.220152971751524
10
5.138235714977761
20
9.097040059009945
10
4.959647334043059
20
8.954488667648585
10
4.799630942099216
20
8.79443402873942
10
4.659072435405047
20
8.618839929631031
10
4.538658293953687
20
8.429673298063433
10
4.43891665121337
20
8.228875432875828
10
4.360236034023774
20
8.018327823634648
10
4.30287862441084
20
7.799816642785513
10
4.266993431013624
20
7.574997215901756
10
4.252629783954849
20
7.345358561051192
10
4.259756748992173
20
7.112189193081925
10
4.288294498230624
20
6.8765454829621975
10
4.3381494102252836
20
6.639220814071259
10
4.4092492669471355
20
6.400714759189392
0
ARC
5
114
100
AcDbEntity
8
0
100
AcDbCircle
10
4.8823651036750482
20
6.5624596355792892
30
0
40
0.50000000000113554
210
0
220
0
230
1
100
AcDbArc
50
198.87410220092895
51
335.89356907296548
0
LWPOLYLINE
5
115
100
AcDbEntity
8
0
100
AcDbPolyline
90
88
43
0.0
10
5.338759273736471
20
6.358243178032909
10
5.451849762279628
20
6.58389006413834
10
5.576567578793908
20
6.781684520875471
10
5.712326668528065
20
6.951368733049512
10
5.858218592591777
20
7.092594271059309
10
6.013058110325065
20
7.204945481678868
10
6.175428862503365
20
7.287963245493991
10
6.343732936879268
20
7.341182851158184
10
6.516252880637397
20
7.364217128686323
10
6.691219874886261
20
7.356861988935615
10
6.866882245858619
20
7.319203187414416
10
7.041573886128978
20
7.251722763075767
10
7.213777222288405
20
7.155385779082307
10
7.382163952800654
20
7.031646770148502
10
7.545622009377819
20
6.882406429658603
10
7.703281479596603
20
6.709964544817426
10
7.854540441805532
20
6.516972800219352
10
8.1368415399368
20
6.081269588941899
10
8.392619037027123
20
5.5996155828666465
10
8.623790078257757
20
5.092801224181869
10
8.832174520956606
20
4.573179360265913
10
9.019064628177528
20
4.044804702150235
10
9.185700662396679
20
3.5066422277338196
10
9.333520478460379
20
2.9550782106778994
10
9.463895303953095
20
2.3848092514887176
10
9.577772953215478
20
1.7893862470856587
10
9.675549656013716
20
1.1622029991277691
10
9.757116075209392
20
0.49784134505241634
10
9.821825001913977
20
-0.20642304542988363
10
9.86824915329852
20
-0.9488439922477294
10
9.893944859446982
20
-1.7216585758296006
10
9.895735067357473
20
-2.5117257036180782
10
9.870488876367453
20
-3.3032548566922615
10
9.815787603648664
20
-4.080268130447964
10
9.730094298418315
20
-4.827553109053821
10
9.612714440341092
20
-5.530968059635299
10
9.463769695783565
20
-6.177671394203188
10
9.284198152906537
20
-6.756293547191385
10
9.183443249000042
20
-7.016962692308326
10
9.075749415739375
20
-7.257093971685867
10
8.961455641874936
20
-7.475747311705569
10
8.840945628164741
20
-7.672101439768647
10
8.714646361891921
20
-7.845458780303304
10
8.583029137852108
20
-7.995255326936406
10
8.446612771193474
20
-8.121074972933501
10
8.305967079589507
20
-8.222664389466482
10
8.161716361860476
20
-8.29994789527074
10
8.014541295239294
20
-8.353038597334704
10
7.865167963431012
20
-8.382219184933396
10
7.714342520510709
20
-8.38788885177773
10
7.562803542655074
20
-8.370504765883899
10
7.411254366521394
20
-8.330523507966864
10
7.26033654628079
20
-8.268345160400486
10
7.110615435125884
20
-8.184286124202057
10
6.962582638345764
20
-8.07859191191862
10
6.816661976226248
20
-7.951458256778646
10
6.67321548773452
20
-7.803052318495123
10
6.532549387300885
20
-7.633533901638246
10
6.394919330975202
20
-7.443076859090247
10
6.260534482002309
20
-7.231890817246454
10
6.1295612570413835
20
-7.0002429868012745
10
6.002127066203958
20
-6.748479975190332
10
5.758212789583889
20
-6.186518243931438
10
5.529171745202094
20
-5.551079347336508
10
5.3149946248698186
20
-4.849443913362566
10
5.115401580499992
20
-4.091438225656591
10
4.9299877846001
20
-3.2903391903814136
10
4.600411315561301
20
-1.636548068189561
10
4.4558609860969955
20
-0.8308358476934969
10
4.324395881208862
20
-0.06571213345143576
10
4.205390715269533
20
0.6487258562659332
10
4.097966996982209
20
1.310089863654327
10
4.001041623415665
20
1.9223322158996414
10
3.9133720890612222
20
2.4946784957795898
10
3.760291926327567
20
3.5775470429259912
10
3.691986057404153
20
4.124595787513835
10
3.6272308206610515
20
4.70275215080907
10
3.564629538978446
20
5.333290647363361
10
3.533725576237384
20
5.6747234558828605
10
3.502882723901473
20
6.036920717149489
10
3.4719607522389833
20
6.422222838185061
10
3.440830866590562
20
6.832811744915475
10
3.4093770525126432
20
7.270679554740776
10
3.3774974212741538
20
7.737597251427683
10
3.3451055618190577
20
8.235083402505074
10
3.312131905789446
20
8.764372962512747
10
3.2785250966223556
20
9.326386103028788
10
3.2442533587524056
20
9.921697043392475
0
ARC
5
116
100
AcDbEntity
8
0
100
AcDbCircle
10
2.595290087829969
20
9.8850000000000033
30
0
40
0.65000000000007485
210
0
220
-0
230
1
100
AcDbArc
50
3.236468112053251
51
169.81091095621943
0
LINE
5
117
100
AcDbEntity
8
0
100
AcDbLine
10
1.9555410345461999
20
9.9999832545309157
30
0
11
-0.41022269824966706
21
-3.1627604382239727
31
0
0
ENDSEC
0
SECTION
2
OBJECTS
0
DICTIONARY
5
C
100
AcDbDictionary
3
ACAD_GROUP
350
D
3
ACAD_MLINESTYLE
350
17
0
DICTIONARY
5
D
100
AcDbDictionary
0
DICTIONARY
5
1A
330
C
100
AcDbDictionary
0
DICTIONARY
5
17
100
AcDbDictionary
0
ENDSEC
0
EOF
